More coursework: 1 - A | B | C | D | E | F | G | H | I - J | K - L | M | N - O | P - S | T | U - Y

Spiderweb

#----------------------------------PLEASE NOTE---------------------------------#

#This file is the author's own work and represents their interpretation of the #

#song. You may only use this file for private study, scholarship, or research. #

#----------------#

song: Spiderwebs

by : No Doubt

Riff 1

e---------------------------

B---------------------------

G---------------------------

D---------------------------

A---6--6--5--5--3--3--1--0--

E---------------------------

Riff 2

e-----------------------------------

B-----------------------------6~~--- every other time riff 2

G----------------------------------- is played, hit the high F

D------8-------8-------8------------ as an artificial harmonic

A-----------------------------------

E--6-6---6---6---6---6---6--6-------

Riff 3

e---------------------------------------

B---------------------------------------

G---------------------------------------

D------8-------8-----------------5--8---

A--------------------------5--8---------

E--6-6---6---6---6---6--8---------------

Intro (reggae beat)

Bb F Gm Eb | Bb F Gm (riff 1)

vi viii x vi vi viii iii

Play Riff 2 twice

Then into VERSE

Riff 2 x 3

Riff 3

TAB FOR CHORDS

Bb F Gm Eb Gm Bb F

vi viii x vi iii i i

e----6-------------6---3---1---1-----

B----6---10---11---8---3---3---1-----

G----7---10---12---8---3---3---2-----

D----8---10---12---8---5---3---3-----

A----8----8---10---6---5---1---3-----

E----6-----------------3-------1-----

PRECHORUS

(8th notes)

Eb F Bb Gm | Eb F slide f up....

vi viii vi iii vi viii

CHORUS x 2

Bb F Gm Riff 1

i i iii

VERSE

Riff 2 x 3

Riff 3

PRECHORUS

CHORUS x 2

CHORUS x 2 - with choppy offbeats

BRIDGE

Gm Eb

iii vi

CHORUS x 2

CHORUS x 2 - with choppy offbeats

CHORUS x 6

(last time play riff 1 really slowly)

(throughout the last choruses, play harmonics along the low frets of

the E strings, a natural flange)

OUTRO - with reggae beat of intro

Bb F Gm Eb

vi i iii vi

Lyrics

You think that we connect

That the chemisty's correct

Your words walk right through my ears

Presuming I like what I hear

And now I'm stuck in the web

You're spinning

You've got me for your prey...

Sorry I'm not home right now

I'm walking into spiderwebs

So leave a message

And I'll call you back

A likely story, but leave a message

And I'll call you back

You take advantage of what's mine

You're taking up my time

Don't have the courage inside me

To tell you please let me be

Communication, telephonic invasion

I'm planning my escape...

CHORUS

And It's all your fault

I screen my phone calls

No matter who calls

I gotta screen my phone calls

Now it's gone too deep

You wake me in my sleep

My dreams become nightmares

'Cause you're ringing in my ears

CHORUS

Source: Essay UK - http://www.essay.uk.com/coursework/spiderweb.php



About this resource

This coursework was submitted to us by a student in order to help you with your studies.


Search our content:


  • Download this page
  • Print this page
  • Search again

  • Word count:

    This page has approximately words.


    Share:


    Cite:

    If you use part of this page in your own work, you need to provide a citation, as follows:

    Essay UK, Spiderweb. Available from: <https://www.essay.uk.com/coursework/spiderweb.php> [25-05-20].


    More information:

    If you are the original author of this content and no longer wish to have it published on our website then please click on the link below to request removal: